Take it All

/ Music / Comment[0]
おいらが小5の頃にハマった無名の良ゲー「BREAKDOWN」のED「Take it All - Trust Company」をテキトーにコピーしてみた。
チューニングは全弦を半音下げた状態で更に6弦を1音下げるドロップC#れす。

[Guitar1]

Intro:
x2----------------------------------------------- N.H......... x4---------------------------------------
D#|-------------------------------------------------|-------------------------------------------|-----------------------------------------|
A#|-------------------------------------------------|-------------------------------------------|-----------------------------------------|
F#|-------------------------------------------------|-------------------------------------------|-----------------------------------------|
C#|-0--2--0--2--------------------------------------|-0--2--0--2--------------------------------|-0--2--0--2----0--2--0--2----0--2--3--2--|
G#|-0--2--0--2--------------------------------------|-0--2--0--2--------------------------------|-0--2--0--2----0--2--0--2----0--2--3--2--|
C#|-0--2--0--2--2--0--2--2--0--2--0--2--3--2--0--2--|-0--2--0--2--2--0--2--2--0--2--5---5---5---|-0--2--0--2----0--2--0--2----0--2--3--2--|


Verse1:
x3------------------------------------------------
PM.................................s................
D#|-----------|-----------|-----------|---------------|
A#|-----------|-----------|-----------|---------------|
F#|-----------|-----------|-----------|---------------|
C#|-----------|-----------|-----------|---------------|
G#|-----------|-----------|-----------|---------------|
C#|-2-2-2-2...|-0-0-0-0...|-3-3-3-3...|-10-10-10-10...|


D#|--------------------------------|---------------------------|
A#|--------------------------------|---------------------------|
F#|---------5--5--5--5----5--------|---------5--5--5--5--------|
C#|-2---2---5--5--5--5----5----0---|-2---2---5--5--5--5--------|
G#|-2---2---3--3--3--3----3----0---|-2---2---3--3--3--3--------|
C#|-2---2----------------------0---|-2---2---------------------|


Chorus:
x2---------------------------------------------
D#|-----------|-----------|-----------|-----------|
A#|-----------|-----------|-----------|-----------|
F#|-----------|-----------|-5-5-5-5...|-5-5-5-5...|
C#|-2-2-2-2...|-5-5-5-5...|-5-5-5-5...|-5-5-5-5...|
G#|-2-2-2-2...|-5-5-5-5...|-3-3-3-3...|-3-3-3-3...|
C#|-2-2-2-2...|-5-5-5-5...|-----------|-----------|


x2-----------------------------------------------
D#|-------------------------------------------------|
A#|-------------------------------------------------|
F#|-------------------------------------------------|
C#|-0--2--0--2--------------------------------------|
G#|-0--2--0--2--------------------------------------|
C#|-0--2--0--2--2--0--2--2--0--2--0--2--3--2--0--2--|


Verse2:
x3------------------------------------------------
PM.................................s................
D#|-----------|-----------|-----------|---------------|
A#|-----------|-----------|-----------|---------------|
F#|-----------|-----------|-----------|---------------|
C#|-----------|-----------|-----------|---------------|
G#|-----------|-----------|-----------|---------------|
C#|-2-2-2-2...|-0-0-0-0...|-3-3-3-3...|-10-10-10-10...|



D#|--------------------------------|---------------------------|
A#|--------------------------------|---------------------------|
F#|---------5--5--5--5----5--------|---------5--5--5--5--------|
C#|-2---2---5--5--5--5----5----0---|-2---2---5--5--5--5--------|
G#|-2---2---3--3--3--3----3----0---|-2---2---3--3--3--3--------|
C#|-2---2----------------------0---|-2---2---------------------|


Chorus:
x2---------------------------------------------
D#|-----------|-----------|-----------|-----------|
A#|-----------|-----------|-----------|-----------|
F#|-----------|-----------|-5-5-5-5...|-5-5-5-5...|
C#|-2-2-2-2...|-5-5-5-5...|-5-5-5-5...|-5-5-5-5...|
G#|-2-2-2-2...|-5-5-5-5...|-3-3-3-3...|-3-3-3-3...|
C#|-2-2-2-2...|-5-5-5-5...|-----------|-----------|


x3----------------------------------------------- N.H.........
D#|-------------------------------------------------|-------------------------------------------|
A#|-------------------------------------------------|-------------------------------------------|
F#|-------------------------------------------------|-------------------------------------------|
C#|-0--2--0--2--------------------------------------|-0--2--0--2--------------------------------|
G#|-0--2--0--2--------------------------------------|-0--2--0--2--------------------------------|
C#|-0--2--0--2--2--0--2--2--0--2--0--2--3--2--0--2--|-0--2--0--2--2--0--2--2--0--2--5---5---5---|


x7--------------------------------------
D#|-----------------------------------------|---------------------------|
A#|-----------------------------------------|---------------------------|
F#|-----------------------------------------|---------------------------|
C#|-0--2--0--2----0--2--0--2----0--2--3--2--|-0--2--0--2----2--2--------|
G#|-0--2--0--2----0--2--0--2----0--2--3--2--|-0--2--0--2----2--2--------|
C#|-0--2--0--2----0--2--0--2----0--2--3--2--|-0--2--0--2----2--2--------|


Chorus:
x4---------------------------------------------
D#|-----------|-----------|-----------|-----------|
A#|-----------|-----------|-----------|-----------|
F#|-----------|-----------|-5-5-5-5...|-5-5-5-5...|
C#|-2-2-2-2...|-5-5-5-5...|-5-5-5-5...|-5-5-5-5...|
G#|-2-2-2-2...|-5-5-5-5...|-3-3-3-3...|-3-3-3-3...|
C#|-2-2-2-2...|-5-5-5-5...|-----------|-----------|


Outro:
x3------------------------------
D#|--------------------------------|--------------------|
A#|--------------------------------|--------------------|
F#|---------5--5--5--5----5--------|--------------------|
C#|-2---2---5--5--5--5----5----0---|-2---2--------------|
G#|-2---2---3--3--3--3----3----0---|-2---2--------------|
C#|-2---2----------------------0---|-2---2--------------|




[Guitar2]

Verse1:
D#|--------------------|--------------------|-----------------------|--------------------|
A#|--------------------|-----5--------------|-----------------------|----------5---------|
F#|-----5--------------|--------------------|-----4---5-------------|--------------------|
C#|----------5---------|----------5---------|-------------5---------|-----5--------------|
G#|-3------------------|-3------------------|-3---------------------|-3------------------|
C#|--------------------|--------------------|-----------------------|--------------------|

Chorus:
D#|--------|--------|--------|------------------------------|
A#|-8------|-7------|-5------|-------------4---5---3---0----|
F#|-9------|-7------|-5------|-4---5---4--------------------|
C#|-9------|-7------|-5------|------------------------------|
G#|-7------|-5------|-3------|------------------------------|
C#|--------|--------|--------|------------------------------|

Verse2:
D#|-------------2----3----3---|
A#|-0---1---0-----------------|
F#|---------------------------|
C#|---------------------------|
G#|---------------------------|
C#|---------------------------|

関連記事

コメント

:
:
:
:
:
管理人のみ表示を許可